Как на войне

e -----------------------------------------------------------------------------
-----------------------------------------------------------------------------
-----------------------------------------------------------------------------
-----------------------------------------------------------------------------
-----------------------------2-----3-0-3-5-7---5-7-5------------------------
E -5-0-3-5-0-5-4-3-0-2-3-0-2-3---2-5-----------7-------8-7---------------------

Riff 1:
Am   G       C7       E         Am       G         C7       E
e --0--------3-1-0-------------------------0---------3-1-0---------0----4----
B ----1-0------------3-1-3-0---0-1-0---------1-0-------------3-1-3-----------
G -2--------0------------------------2-------------0-------------------------
D ---------------------------------------2-----------------------------------
A ---------------------------------------------------------------------------
E ---------------------------------------------------------------------------

Riff 2:
Am               G               C               E
e ---------------------------------------------------------------------
B ---------------------------------------------------------------------
G ---------------------------------------------------------------------
D -----------------------------------0-----0------0-2-4---2-4----2-0---
A -2---0-2------2-1-0-----0--------0---0-2------4-------4------------4-
E ---2--------2-------2-4------2-4-------------------------------------
Am       G       C       E     Am
Ляг отдохни и послушай что я скажу
   G       C     E   Am
Я терпел но сегодня я ухожу
     G       C       E   Am
Я сказал успокойся и рот закрой
       G       C     E       Am
Вот и все до свидания черт с тобой
       G           C           E           Am
Я на тебе как на войне, а на войне как на тебе
       G           C             E           Am
Но я устал, окончен бой, беру портвейн, иду домой
         G           C           E         Am
Окончен бой, зачах огонь, и не осталось ничего
         G             C       E    Am
Но мы живем и нам с тобою повезло назло
Боль - зто боль, как ее ты не назови
Это страх, там где страх, места нет любви
Я сказал успокойся и рот закрой
вот и все до свидания черт с тобой
Я на тебе как на войне, а на войне как на тебе
Но я устал, окончен бой, беру портвейн, иду домой
Окончен бой, зачах огонь, и не осталось ничего
Но мы живем и нам с тобою повезло назло
Полезные ссылки
Напишите нам Карта сайта