Intro нa aльбoмe "Пepeкpecтoк"

[e:-----------------------------------------------------|

B:--6--6--6--6-6-6--6^8^6-5-6--6--6-6-6-6-6-6-5~~~-----|

G:-----------------------------------------------------|

D:-----------------------------------------------------|

A:-----------------------------------------------------|

E:-----------------------------------------------------|

 

e:--------------------------------------------------------|

B:-5-5-5-5-5~--5/11-10--6~~~-----5-5-5-5~--5/8-6-5~~~-----|

G:--------------------------------------------------------|

D:--------------------------------------------------------|

A:--------------------------------------------------------|

E:--------------------------------------------------------|

 

e:----------------------------------------------------|

B:-6~---6-6~---6-6-6-6/8-6-5-6~---6-6-6-6-6-6-6^5-----|

G:----------------------------------------------------|

D:----------------------------------------------------|

A:----------------------------------------------------|

E:----------------------------------------------------|

 

e:---------------------------------------------------|

B:-5~--5/8--6---6-5-6--8-8-8---11-11-11--11-10~~-----|

G:---------------------------------------------------|

D:---------------------------------------------------|

A:---------------------------------------------------|

E:---------------------------------------------------|

 

e:------------12-10-10~--9-8-9~~~-----|

B:--9~--9-9~--------------------------|

G:------------------------------------|

D:------------------------------------|

A:------------------------------------|

E:------------------------------------|

 

e:-------------------------10------------|

B:--10-10-10-10-10^9-10-11----10---------|

G:---------------------------------------|

D:--------------------------------11~~---|

A:---------------------------------------|

E:---------------------------------------|

 

e:------------------------------------|

B:--10-10-10-10-10-10-10\6------------|

G:--------------------------4~~~------|

D:------------------------------------|

A:------------------------------------|

E:------------------------------------|

 

e:----------------------------------|

B:--8-8-8--8-8-8--8--6--------------|

G:--9-9-9--9-9-9--------6-----------|

D:--8-8-8--7-7-7-----------7~~~-----|

A:----------------------------------|

E:----------------------------------|

 

e:--------------------------------------------------------|

B:-5-6-8-5~~---5/6----3-2/3~--2-0-2-----3-2/3~--2-0-2-----|

G:--------------------------------------------------------|

D:--------------------------------------------------------|

A:--------------------------------------------------------|

E:--------------------------------------------------------|

 

e:--------------------------------------------------------|

B:--3-2/3~--2-0-2-----3-2/3~--2-0-2-----3-2/3~--2-0-2-----|

G:--------------------------------------------------------|

D:--------------------------------------------------------|

A:--------------------------------------------------------|

E:--------------------------------------------------------|

       F(V)         F(V)/E      F(V)/D

e:------------------------------------------|

B:------6-6--6-------6-6--6-------6-6--6----|

G:------5-5--5-------5-5--5-------5-5--5----|

D:------7-7--7-------7-7--7-------7-7--7----|

A:----8------------7------------5-----------|

E:------------------------------------------|

       F(V)/E       F(V)

e:-----------------------------|

B:------6-6--6-------6-6--6----|

G:------5-5--5-------5-5--5----|

D:------7-7--7-------7-7--7----|

A:----7------------8-----------|

E:-----------------------------|]

Полезные ссылки
Напишите нам Карта сайта